ISO-10303-21;
HEADER;
FILE_DESCRIPTION( ( 'STEP AP203' ), '1' );
FILE_NAME( 'p:/temp/worker_129/temp/exporttempdir_2092_203_BExde/format_0/30054004007(architecture400).stp', '2022-04-08T11:36:55', ( 'License CC BY-ND 4.0' ), ( 'CADENAS' ), ' ', 'PARTsolutions', ' ' );
FILE_SCHEMA( ( 'CONFIG_CONTROL_DESIGN' ) );
ENDSEC;
DATA;
#1 = DESIGN_CONTEXT( '', #27, 'design' );
#2 = APPLICATION_PROTOCOL_DEFINITION( 'international standard', 'config_control_design', 1994, #27 );
#3 = PRODUCT_CATEGORY_RELATIONSHIP( 'NONE', 'NONE', #28, #29 );
#4 = DATE_AND_TIME( #30, #31 );
#5 = DATE_TIME_ROLE( 'creation_date' );
#6 = DATE_TIME_ROLE( 'classification_date' );
#7 = PERSON_AND_ORGANIZATION_ROLE( 'creator' );
#8 = PERSON_AND_ORGANIZATION_ROLE( 'design_supplier' );
#9 = PERSON_AND_ORGANIZATION_ROLE( 'classification_officer' );
#10 = PERSON_AND_ORGANIZATION_ROLE( 'design_owner' );
#11 = APPROVAL_PERSON_ORGANIZATION( #32, #33, #34 );
#12 = APPROVAL_DATE_TIME( #4, #33 );
#13 = CC_DESIGN_APPROVAL( #33, ( #35, #36, #37 ) );
#14 = CC_DESIGN_DATE_AND_TIME_ASSIGNMENT( #4, #5, ( #37 ) );
#15 = CC_DESIGN_DATE_AND_TIME_ASSIGNMENT( #4, #6, ( #35 ) );
#16 = CC_DESIGN_PERSON_AND_ORGANIZATION_ASSIGNMENT( #32, #10, ( #38 ) );
#17 = CC_DESIGN_PERSON_AND_ORGANIZATION_ASSIGNMENT( #32, #7, ( #37 ) );
#18 = CC_DESIGN_PERSON_AND_ORGANIZATION_ASSIGNMENT( #32, #7, ( #36 ) );
#19 = CC_DESIGN_PERSON_AND_ORGANIZATION_ASSIGNMENT( #32, #8, ( #36 ) );
#20 = CC_DESIGN_SECURITY_CLASSIFICATION( #35, ( #36 ) );
#21 = CC_DESIGN_PERSON_AND_ORGANIZATION_ASSIGNMENT( #32, #9, ( #35 ) );
#22 = SHAPE_DEFINITION_REPRESENTATION( #39, #40 );
#23 =  ( GEOMETRIC_REPRESENTATION_CONTEXT( 3 )GLOBAL_UNCERTAINTY_ASSIGNED_CONTEXT( ( #43 ) )GLOBAL_UNIT_ASSIGNED_CONTEXT( ( #45, #46, #47 ) )REPRESENTATION_CONTEXT( 'NONE', 'WORKSPACE' ) );
#27 = APPLICATION_CONTEXT( 'configuration controlled 3D designs of mechanical parts and assemblies' );
#28 = PRODUCT_CATEGORY( 'part', 'NONE' );
#29 = PRODUCT_RELATED_PRODUCT_CATEGORY( 'detail', ' ', ( #38 ) );
#30 = CALENDAR_DATE( 2022, 8, 3 );
#31 = LOCAL_TIME( 13, 36, 55.0000000000000, #49 );
#32 = PERSON_AND_ORGANIZATION( #50, #51 );
#33 = APPROVAL( #52, 'SOLID MODEL' );
#34 = APPROVAL_ROLE( 'APPROVED' );
#35 = SECURITY_CLASSIFICATION( '', '', #53 );
#36 = PRODUCT_DEFINITION_FORMATION_WITH_SPECIFIED_SOURCE( ' ', 'NONE', #38, .NOT_KNOWN. );
#37 = PRODUCT_DEFINITION( 'NONE', 'NONE', #36, #1 );
#38 = PRODUCT( '_30054004007(architecture400)', '_30054004007(architecture400)', 'PART-_30054004007(architecture400)-DESC', ( #54 ) );
#39 = PRODUCT_DEFINITION_SHAPE( 'NONE', 'NONE', #37 );
#40 = ADVANCED_BREP_SHAPE_REPRESENTATION( '_30054004007(architecture400)', ( #55, #56 ), #23 );
#43 = UNCERTAINTY_MEASURE_WITH_UNIT( LENGTH_MEASURE( 0.00100000000000000 ), #45, '', '' );
#45 =  ( CONVERSION_BASED_UNIT( 'MILLIMETRE', #59 )LENGTH_UNIT(  )NAMED_UNIT( #62 ) );
#46 =  ( NAMED_UNIT( #64 )PLANE_ANGLE_UNIT(  )SI_UNIT( $, .RADIAN. ) );
#47 =  ( NAMED_UNIT( #64 )SI_UNIT( $, .STERADIAN. )SOLID_ANGLE_UNIT(  ) );
#49 = COORDINATED_UNIVERSAL_TIME_OFFSET( 1, 0, .AHEAD. );
#50 = PERSON( '', 'UNSPECIFIED', $, $, $, $ );
#51 = ORGANIZATION( 'UNSPECIFIED', 'UNSPECIFIED', 'UNSPECIFIED' );
#52 = APPROVAL_STATUS( 'approved' );
#53 = SECURITY_CLASSIFICATION_LEVEL( 'unclassified' );
#54 = MECHANICAL_CONTEXT( '', #27, 'mechanical' );
#55 = MANIFOLD_SOLID_BREP( '_30054004007(architecture400)', #70 );
#56 = AXIS2_PLACEMENT_3D( '', #71, #72, #73 );
#59 = LENGTH_MEASURE_WITH_UNIT( LENGTH_MEASURE( 1.00000000000000 ), #74 );
#62 = DIMENSIONAL_EXPONENTS( 1.00000000000000, 0.000000000000000, 0.000000000000000, 0.000000000000000, 0.000000000000000, 0.000000000000000, 0.000000000000000 );
#64 = DIMENSIONAL_EXPONENTS( 0.000000000000000, 0.000000000000000, 0.000000000000000, 0.000000000000000, 0.000000000000000, 0.000000000000000, 0.000000000000000 );
#70 = CLOSED_SHELL( '', ( #75, #76, #77, #78, #79, #80, #81, #82, #83 ) );
#71 = CARTESIAN_POINT( '', ( 0.000000000000000, 0.000000000000000, 0.000000000000000 ) );
#72 = DIRECTION( '', ( 0.000000000000000, 0.000000000000000, 1.00000000000000 ) );
#73 = DIRECTION( '', ( 1.00000000000000, 0.000000000000000, 0.000000000000000 ) );
#74 =  ( LENGTH_UNIT(  )NAMED_UNIT( #62 )SI_UNIT( .MILLI., .METRE. ) );
#75 = ADVANCED_FACE( '', ( #85, #86 ), #87, .F. );
#76 = ADVANCED_FACE( '', ( #88, #89 ), #90, .F. );
#77 = ADVANCED_FACE( '', ( #91, #92 ), #93, .F. );
#78 = ADVANCED_FACE( '', ( #94, #95 ), #96, .F. );
#79 = ADVANCED_FACE( '', ( #97, #98 ), #99, .F. );
#80 = ADVANCED_FACE( '', ( #100, #101 ), #102, .T. );
#81 = ADVANCED_FACE( '', ( #103, #104 ), #105, .T. );
#82 = ADVANCED_FACE( '', ( #106, #107 ), #108, .T. );
#83 = ADVANCED_FACE( '', ( #109, #110 ), #111, .F. );
#85 = FACE_OUTER_BOUND( '', #112, .T. );
#86 = FACE_OUTER_BOUND( '', #113, .T. );
#87 = TOROIDAL_SURFACE( '', #114, 15.0000000000000, 3.00000000000000 );
#88 = FACE_OUTER_BOUND( '', #115, .T. );
#89 = FACE_OUTER_BOUND( '', #116, .T. );
#90 = CYLINDRICAL_SURFACE( '', #117, 18.0000000000000 );
#91 = FACE_BOUND( '', #118, .T. );
#92 = FACE_OUTER_BOUND( '', #119, .T. );
#93 = PLANE( '', #120 );
#94 = FACE_OUTER_BOUND( '', #121, .T. );
#95 = FACE_OUTER_BOUND( '', #122, .T. );
#96 = CYLINDRICAL_SURFACE( '', #123, 20.0000000000000 );
#97 = FACE_BOUND( '', #124, .T. );
#98 = FACE_OUTER_BOUND( '', #125, .T. );
#99 = PLANE( '', #126 );
#100 = FACE_OUTER_BOUND( '', #127, .T. );
#101 = FACE_OUTER_BOUND( '', #128, .T. );
#102 = CYLINDRICAL_SURFACE( '', #129, 26.0000000000000 );
#103 = FACE_OUTER_BOUND( '', #130, .T. );
#104 = FACE_OUTER_BOUND( '', #131, .T. );
#105 = TOROIDAL_SURFACE( '', #132, 20.0000000000000, 6.00000000000000 );
#106 = FACE_BOUND( '', #133, .T. );
#107 = FACE_OUTER_BOUND( '', #134, .T. );
#108 = SPHERICAL_SURFACE( '', #135, 52.0000000000000 );
#109 = FACE_BOUND( '', #136, .T. );
#110 = FACE_OUTER_BOUND( '', #137, .T. );
#111 = SPHERICAL_SURFACE( '', #138, 46.0000000000000 );
#112 = EDGE_LOOP( '', ( #139 ) );
#113 = EDGE_LOOP( '', ( #140 ) );
#114 = AXIS2_PLACEMENT_3D( '', #141, #142, #143 );
#115 = EDGE_LOOP( '', ( #144 ) );
#116 = EDGE_LOOP( '', ( #145 ) );
#117 = AXIS2_PLACEMENT_3D( '', #146, #147, #148 );
#118 = EDGE_LOOP( '', ( #149 ) );
#119 = EDGE_LOOP( '', ( #150 ) );
#120 = AXIS2_PLACEMENT_3D( '', #151, #152, #153 );
#121 = EDGE_LOOP( '', ( #154 ) );
#122 = EDGE_LOOP( '', ( #155 ) );
#123 = AXIS2_PLACEMENT_3D( '', #156, #157, #158 );
#124 = EDGE_LOOP( '', ( #159 ) );
#125 = EDGE_LOOP( '', ( #160 ) );
#126 = AXIS2_PLACEMENT_3D( '', #161, #162, #163 );
#127 = EDGE_LOOP( '', ( #164 ) );
#128 = EDGE_LOOP( '', ( #165 ) );
#129 = AXIS2_PLACEMENT_3D( '', #166, #167, #168 );
#130 = EDGE_LOOP( '', ( #169 ) );
#131 = EDGE_LOOP( '', ( #170 ) );
#132 = AXIS2_PLACEMENT_3D( '', #171, #172, #173 );
#133 = VERTEX_LOOP( '', #174 );
#134 = EDGE_LOOP( '', ( #175 ) );
#135 = AXIS2_PLACEMENT_3D( '', #176, #177, #178 );
#136 = VERTEX_LOOP( '', #179 );
#137 = EDGE_LOOP( '', ( #180 ) );
#138 = AXIS2_PLACEMENT_3D( '', #181, #182, #183 );
#139 = ORIENTED_EDGE( '', *, *, #184, .F. );
#140 = ORIENTED_EDGE( '', *, *, #185, .T. );
#141 = CARTESIAN_POINT( '', ( -4.79888335921976, 0.000000000000000, 0.000000000000000 ) );
#142 = DIRECTION( '', ( 1.00000000000000, 0.000000000000000, -0.000000000000000 ) );
#143 = DIRECTION( '', ( -0.000000000000000, 0.000000000000000, -1.00000000000000 ) );
#144 = ORIENTED_EDGE( '', *, *, #185, .F. );
#145 = ORIENTED_EDGE( '', *, *, #186, .T. );
#146 = CARTESIAN_POINT( '', ( -10.5000000000000, 0.000000000000000, 0.000000000000000 ) );
#147 = DIRECTION( '', ( -1.00000000000000, -0.000000000000000, 0.000000000000000 ) );
#148 = DIRECTION( '', ( -0.000000000000000, 0.000000000000000, -1.00000000000000 ) );
#149 = ORIENTED_EDGE( '', *, *, #186, .F. );
#150 = ORIENTED_EDGE( '', *, *, #187, .T. );
#151 = CARTESIAN_POINT( '', ( 0.000000000000000, 20.0000000000000, 0.000000000000000 ) );
#152 = DIRECTION( '', ( -1.00000000000000, 0.000000000000000, 0.000000000000000 ) );
#153 = DIRECTION( '', ( 0.000000000000000, 0.000000000000000, 1.00000000000000 ) );
#154 = ORIENTED_EDGE( '', *, *, #187, .F. );
#155 = ORIENTED_EDGE( '', *, *, #188, .T. );
#156 = CARTESIAN_POINT( '', ( -10.5000000000000, 0.000000000000000, 0.000000000000000 ) );
#157 = DIRECTION( '', ( -1.00000000000000, -0.000000000000000, 0.000000000000000 ) );
#158 = DIRECTION( '', ( -0.000000000000000, 0.000000000000000, -1.00000000000000 ) );
#159 = ORIENTED_EDGE( '', *, *, #188, .F. );
#160 = ORIENTED_EDGE( '', *, *, #189, .T. );
#161 = CARTESIAN_POINT( '', ( 20.5000000000000, 26.0000000000000, 0.000000000000000 ) );
#162 = DIRECTION( '', ( -1.00000000000000, 0.000000000000000, 0.000000000000000 ) );
#163 = DIRECTION( '', ( 0.000000000000000, 0.000000000000000, 1.00000000000000 ) );
#164 = ORIENTED_EDGE( '', *, *, #189, .F. );
#165 = ORIENTED_EDGE( '', *, *, #190, .T. );
#166 = CARTESIAN_POINT( '', ( -10.5000000000000, 0.000000000000000, 0.000000000000000 ) );
#167 = DIRECTION( '', ( -1.00000000000000, -0.000000000000000, 0.000000000000000 ) );
#168 = DIRECTION( '', ( -0.000000000000000, 0.000000000000000, -1.00000000000000 ) );
#169 = ORIENTED_EDGE( '', *, *, #191, .T. );
#170 = ORIENTED_EDGE( '', *, *, #190, .F. );
#171 = CARTESIAN_POINT( '', ( -5.92463035441597, 0.000000000000000, 0.000000000000000 ) );
#172 = DIRECTION( '', ( 1.00000000000000, 0.000000000000000, -0.000000000000000 ) );
#173 = DIRECTION( '', ( -0.000000000000000, 0.000000000000000, -1.00000000000000 ) );
#174 = VERTEX_POINT( '', #192 );
#175 = ORIENTED_EDGE( '', *, *, #191, .F. );
#176 = CARTESIAN_POINT( '', ( 35.5000000000002, -2.60208521396521E-14, 0.000000000000000 ) );
#177 = DIRECTION( '', ( 1.00000000000000, 0.000000000000000, 0.000000000000000 ) );
#178 = DIRECTION( '', ( 0.000000000000000, 1.00000000000000, 0.000000000000000 ) );
#179 = VERTEX_POINT( '', #193 );
#180 = ORIENTED_EDGE( '', *, *, #184, .T. );
#181 = CARTESIAN_POINT( '', ( 35.4999999999994, 8.15320033709099E-14, 0.000000000000000 ) );
#182 = DIRECTION( '', ( 1.00000000000000, 0.000000000000000, 0.000000000000000 ) );
#183 = DIRECTION( '', ( 0.000000000000000, 1.00000000000000, 0.000000000000000 ) );
#184 = EDGE_CURVE( '', #194, #194, #195, .T. );
#185 = EDGE_CURVE( '', #196, #196, #197, .T. );
#186 = EDGE_CURVE( '', #198, #198, #199, .T. );
#187 = EDGE_CURVE( '', #200, #200, #201, .T. );
#188 = EDGE_CURVE( '', #202, #202, #203, .T. );
#189 = EDGE_CURVE( '', #204, #204, #205, .T. );
#190 = EDGE_CURVE( '', #206, #206, #207, .T. );
#191 = EDGE_CURVE( '', #208, #208, #209, .T. );
#192 = CARTESIAN_POINT( '', ( -16.5000000000000, -2.28367704618690E-14, 0.000000000000000 ) );
#193 = CARTESIAN_POINT( '', ( -10.5000000000000, 8.43486910089488E-14, 0.000000000000000 ) );
#194 = VERTEX_POINT( '', #210 );
#195 = CIRCLE( '', #211, 16.0465116279000 );
#196 = VERTEX_POINT( '', #212 );
#197 = CIRCLE( '', #213, 18.0000000000000 );
#198 = VERTEX_POINT( '', #214 );
#199 = CIRCLE( '', #215, 18.0000000000000 );
#200 = VERTEX_POINT( '', #216 );
#201 = CIRCLE( '', #217, 20.0000000000000 );
#202 = VERTEX_POINT( '', #218 );
#203 = CIRCLE( '', #219, 20.0000000000000 );
#204 = VERTEX_POINT( '', #220 );
#205 = CIRCLE( '', #221, 26.0000000000000 );
#206 = VERTEX_POINT( '', #222 );
#207 = CIRCLE( '', #223, 26.0000000000000 );
#208 = VERTEX_POINT( '', #224 );
#209 = CIRCLE( '', #225, 22.6086956522000 );
#210 = CARTESIAN_POINT( '', ( -7.61043336102579, 0.000000000000000, -16.0465116279070 ) );
#211 = AXIS2_PLACEMENT_3D( '', #226, #227, #228 );
#212 = CARTESIAN_POINT( '', ( -4.79888335921977, 0.000000000000000, -18.0000000000000 ) );
#213 = AXIS2_PLACEMENT_3D( '', #229, #230, #231 );
#214 = CARTESIAN_POINT( '', ( 0.000000000000000, 0.000000000000000, -18.0000000000000 ) );
#215 = AXIS2_PLACEMENT_3D( '', #232, #233, #234 );
#216 = CARTESIAN_POINT( '', ( 0.000000000000000, 0.000000000000000, -20.0000000000000 ) );
#217 = AXIS2_PLACEMENT_3D( '', #235, #236, #237 );
#218 = CARTESIAN_POINT( '', ( 20.5000000000000, 0.000000000000000, -20.0000000000000 ) );
#219 = AXIS2_PLACEMENT_3D( '', #238, #239, #240 );
#220 = CARTESIAN_POINT( '', ( 20.5000000000000, 0.000000000000000, -26.0000000000000 ) );
#221 = AXIS2_PLACEMENT_3D( '', #241, #242, #243 );
#222 = CARTESIAN_POINT( '', ( -5.92463035441595, 0.000000000000000, -26.0000000000000 ) );
#223 = AXIS2_PLACEMENT_3D( '', #244, #245, #246 );
#224 = CARTESIAN_POINT( '', ( -11.3278430093398, 0.000000000000000, -22.6086956521739 ) );
#225 = AXIS2_PLACEMENT_3D( '', #247, #248, #249 );
#226 = CARTESIAN_POINT( '', ( -7.61043336102579, 0.000000000000000, 0.000000000000000 ) );
#227 = DIRECTION( '', ( 1.00000000000000, 0.000000000000000, -0.000000000000000 ) );
#228 = DIRECTION( '', ( -0.000000000000000, 0.000000000000000, -1.00000000000000 ) );
#229 = CARTESIAN_POINT( '', ( -4.79888335921977, 0.000000000000000, 0.000000000000000 ) );
#230 = DIRECTION( '', ( 1.00000000000000, 0.000000000000000, -0.000000000000000 ) );
#231 = DIRECTION( '', ( -0.000000000000000, 0.000000000000000, -1.00000000000000 ) );
#232 = CARTESIAN_POINT( '', ( 0.000000000000000, 0.000000000000000, 0.000000000000000 ) );
#233 = DIRECTION( '', ( 1.00000000000000, 0.000000000000000, -0.000000000000000 ) );
#234 = DIRECTION( '', ( -0.000000000000000, 0.000000000000000, -1.00000000000000 ) );
#235 = CARTESIAN_POINT( '', ( 0.000000000000000, 0.000000000000000, 0.000000000000000 ) );
#236 = DIRECTION( '', ( 1.00000000000000, 0.000000000000000, -0.000000000000000 ) );
#237 = DIRECTION( '', ( -0.000000000000000, 0.000000000000000, -1.00000000000000 ) );
#238 = CARTESIAN_POINT( '', ( 20.5000000000000, 0.000000000000000, 0.000000000000000 ) );
#239 = DIRECTION( '', ( 1.00000000000000, 0.000000000000000, -0.000000000000000 ) );
#240 = DIRECTION( '', ( -0.000000000000000, 0.000000000000000, -1.00000000000000 ) );
#241 = CARTESIAN_POINT( '', ( 20.5000000000000, 0.000000000000000, 0.000000000000000 ) );
#242 = DIRECTION( '', ( 1.00000000000000, 0.000000000000000, -0.000000000000000 ) );
#243 = DIRECTION( '', ( -0.000000000000000, 0.000000000000000, -1.00000000000000 ) );
#244 = CARTESIAN_POINT( '', ( -5.92463035441595, 0.000000000000000, 0.000000000000000 ) );
#245 = DIRECTION( '', ( 1.00000000000000, 0.000000000000000, -0.000000000000000 ) );
#246 = DIRECTION( '', ( -0.000000000000000, 0.000000000000000, -1.00000000000000 ) );
#247 = CARTESIAN_POINT( '', ( -11.3278430093398, 0.000000000000000, 0.000000000000000 ) );
#248 = DIRECTION( '', ( 1.00000000000000, 0.000000000000000, -0.000000000000000 ) );
#249 = DIRECTION( '', ( -0.000000000000000, 0.000000000000000, -1.00000000000000 ) );
ENDSEC;
END-ISO-10303-21;
